Direct bookmark to this chord/tab page - http://HyperRust.org/Music/?s3t

Chord/Tab for: After The Goldrush
Song Info
Printable
(written t.b.d.)     (notes below will be moved here eventually)

 

Chords/Tabulature for
After The Goldrush

Submitted by: David Katz (katz@cy-net.net)

Notes about this song:

  • This arrangement for guitar is from Arthur Rotfeld and was published in Guitar magazine Feb '96.
  • Tuning (654321) = CGDGBC
  • Other Notes: (H) denotes hammer-on; (P) denotes pull-off
      Well  I  dreamed  I   saw the   knights in  ar -             
--------------|-----------------------------------------|---       
--------------|---------0----0---0----------------------|---       
-------0----2-|----2-------------------4---2------2-----|---       
--------------|----0---------0--------------------2-----|---       
---0----------|----0-------------------0----------0-----|---       
--------------|-----------------------------------0-----|---       
                                        (P)                        
                                                                   
                                                                   
    mor      com -in  say-in  some-thing a-bout     a   queen      
----------------------------|----------------------------------|-- 
----------------------------|--------0---0--0------------------|-- 
-2---0-------0--------0---2-|---2-------------------2----0-----|-- 
-2--------------------------|---0-------------------0----2-----|-- 
-0--------------------------|---0----------------0-------0-----|-- 
-0--------0-------0---------|----------------------------0-----|-- 
                                                                   
                                                                   
                                                                   
                   There were  peas-ants  sing-in'      and        
-----------------------------|-------------0-----------------|-----
-----------------------------|---0---0----------0--------0---|-----
-0---------12--------0----2--|---2---------------------------|-----
-2---------12----------------|---0---------------------------|-----
-0------12--------0----------|---0-------0----------0--------|-----
-0---12----------------------|-------------------------------|-----
    (Harmonics)                                                    
                                                                   
                                                                   
                                                                   
drum-mers  drum-min  and the  arch-er   split  the  tree           
-----------------------------|----------------------------|----    
-0---------------------------|-0----------------0---------|----    
------2-------2-------2---2--|-0----0------0---------2----|----    
----------0-----------0------|-0--------0--2---------4----|----    
-----------------------------|-----------------------2----|----    
-2---------------2-----------|-0-----------0---------2----|----    
                                         (H)                       
      

          There was a└fan    -  fare  blow-in'                      
------------2---4---2-------|----------------------|-----           
-------------------------0--|0-----0-----0---0-----|-----           
-2------2----------------0--|0--0-----0------0-----|-----           
-4------4----------------4--|4-----4---------4-----|-----           
-2--------------------------|----------------------|-----           
-2---2-------------------4--|4---------------4-----|-----           
                                                                    
                                                                    
                                                                    
 to the    sun     that  was  float-ing on   the   breeze           
-----------------------------|-----------------------------|-----   
-----------------------------|--0--------------0-----------|-----   
-----------------------------|--0----0---0---0-2-----------|-----   
-7---5------7-------5-----7--|--0-------------------7------|-----   
-5---------------------------|----------------------5------|-----   
-5------5--------5-----------|--0--------------0----5------|-----   
                                             (H)                    
                                                                    
                                                                    
                               Look  at Moth-er  Na-ture     on     
------------------------------|-------------------0--------------|- 
------------------------------|--0----0---0---0-------0----------|- 
------------------------------|--2----------------------------4--|- 
-7-------5-------7--5-------5-|--0--------0-------------------4--|- 
-5-----------5----------5-----|--0----------------0-------0---2--|- 
-5---5------------------------|-------------------------------2--|- 
                 (P)                                                
                                                                    
                                                                    
   the    run       in  the    nine-teen sev-en - ties              
----------------------------|---------------------------|-----      
----------------------------|---0-----------------------|-----      
-4--2------2---------2---2--|---2----0----0-------------|-----      
-4---------------4----------|----------------2----------|-----      
-2--------------------------|----------------------12---|-----      
-2------2------------2------|---5-------------------0---|-----      



                           Look at Moth-er Nat-ture   on         
-------------12-----------|------------------0-------------|---- 
----------12----12--------|--0---0---0---0-------0---------|---- 
-------12----------12-----|--2-------------------------4---|---- 
----12---------------12---|--0-------0-----------------4---|---- 
-12--------------------12-|--0---------------0---------2---|---- 
--------------------------|----------------------------2---|---- 
 (Harmonics..............)                                       
                                                                 
                                                                 
    the    run      in  the   nine-teen   sev -en - ties         
----------------------------|-----------------------------|----  
----------------------------|--0--------------------------|----  
-4---2------2--------2---2--|--2-----0-----0---------0----|----  
-4---------------4----------|------------------2-----2----|----  
-2--------------------------|------------------------0----|----  
-2-------2-----------2------|--5---------------------0----|----  
                                                                 
                                                                 
                                                                 
             I   was...(next verse)                              
---------------------|----                                       
---------------------|----                                       
-0-----------0----2--|----                                       
-2-------------------|----                                       
-0-------0-----------|----                                       
-0-------------------|----                                       
                                                                 
                                                                 
                                                                 
End of verse 3:                                                  
                                                                 
  new   home                                                     
-|----------------|------12-------------------|---               
-|----------------|----------12---------------|---               
-|-2-----2---0----|--------------12-----------|---               
-|----------------|-----------------12--------|---               
-|----------------|-12------------------------|---               
-|-5--------------|-----------------------5---|---               
                   (Harmonics..............)                     


Verse 2:                                                                
I was lyin' in a burned out basement with the full moon in my eyes. I   
was hopin' for replacement when the sun burst through the sky. There    
was a band playin' in my head and I felt like getting high. I was       
thinkin' about what a friend has said, I was hopin' it was a lie.       
                                                                        

Verse 3:                                                                
Well I dreamed I saw the silver spaceship flyin in the yellow haze of   
the sun. There were children cryin' and colors flyin' all around the    
chosen one. All in a dream, all in a dream, the loading had begun.      
Flying Mother Nature's silver seed to a new home in the sun. Flying     
Mother Nature's silver seed to a new home.